ISO-10303-21;
HEADER;
FILE_DESCRIPTION (( 'STEP AP214' ),
    '1' );
FILE_NAME ('B004M8T1SI.3D.STP',
    '2013-09-05T09:35:32',
    ( '' ),
    ( '' ),
    'SwSTEP 2.0',
    'SolidWorks 2012',
    '' );
FILE_SCHEMA (( 'AUTOMOTIVE_DESIGN' ));
ENDSEC;

DATA;
#1 = VERTEX_POINT ( 'NONE', #79 ) ;
#2 = ORIENTED_EDGE ( 'NONE', *, *, #112, .F. ) ;
#3 = EDGE_CURVE ( 'NONE', #23, #1, #82, .T. ) ;
#4 = ORIENTED_EDGE ( 'NONE', *, *, #22, .T. ) ;
#5 = EDGE_LOOP ( 'NONE', ( #21, #6, #11, #27 ) ) ;
#6 = ORIENTED_EDGE ( 'NONE', *, *, #15, .T. ) ;
#7 = ORIENTED_EDGE ( 'NONE', *, *, #15, .F. ) ;
#8 = ADVANCED_FACE ( 'NONE', ( #80 ), #105, .T. ) ;
#9 = ORIENTED_EDGE ( 'NONE', *, *, #43, .F. ) ;
#10 = ORIENTED_EDGE ( 'NONE', *, *, #43, .T. ) ;
#11 = ORIENTED_EDGE ( 'NONE', *, *, #57, .F. ) ;
#12 = ORIENTED_EDGE ( 'NONE', *, *, #25, .F. ) ;
#13 = ADVANCED_FACE ( 'NONE', ( #150 ), #103, .T. ) ;
#14 = ORIENTED_EDGE ( 'NONE', *, *, #126, .T. ) ;
#15 = EDGE_CURVE ( 'NONE', #1, #60, #123, .T. ) ;
#16 = EDGE_CURVE ( 'NONE', #76, #18, #149, .T. ) ;
#17 = VERTEX_POINT ( 'NONE', #118 ) ;
#18 = VERTEX_POINT ( 'NONE', #117 ) ;
#19 = ORIENTED_EDGE ( 'NONE', *, *, #138, .T. ) ;
#20 = ORIENTED_EDGE ( 'NONE', *, *, #56, .T. ) ;
#21 = ORIENTED_EDGE ( 'NONE', *, *, #3, .T. ) ;
#22 = EDGE_CURVE ( 'NONE', #23, #65, #116, .T. ) ;
#23 = VERTEX_POINT ( 'NONE', #109 ) ;
#24 = EDGE_LOOP ( 'NONE', ( #7, #28, #4, #46 ) ) ;
#25 = EDGE_CURVE ( 'NONE', #17, #60, #148, .T. ) ;
#26 = ORIENTED_EDGE ( 'NONE', *, *, #25, .T. ) ;
#27 = ORIENTED_EDGE ( 'NONE', *, *, #22, .F. ) ;
#28 = ORIENTED_EDGE ( 'NONE', *, *, #32, .T. ) ;
#29 = ORIENTED_EDGE ( 'NONE', *, *, #35, .F. ) ;
#30 = ORIENTED_EDGE ( 'NONE', *, *, #32, .F. ) ;
#31 = ADVANCED_FACE ( 'N', ( #113 ), #111, .F. ) ;
#32 = EDGE_CURVE ( 'NONE', #1, #23, #94, .T. ) ;
#33 = EDGE_LOOP ( 'NONE', ( #2, #29 ) ) ;
#34 = ORIENTED_EDGE ( 'NONE', *, *, #3, .F. ) ;
#35 = EDGE_CURVE ( 'NONE', #96, #137, #132, .T. ) ;
#36 = EDGE_CURVE ( 'NONE', #60, #65, #85, .T. ) ;
#37 = EDGE_LOOP ( 'NONE', ( #34, #30 ) ) ;
#38 = ORIENTED_EDGE ( 'NONE', *, *, #36, .T. ) ;
#39 = EDGE_LOOP ( 'NONE', ( #50, #20, #14, #10 ) ) ;
#40 = ADVANCED_FACE ( 'NONE', ( #131 ), #73, .T. ) ;
#41 = ORIENTED_EDGE ( 'NONE', *, *, #69, .F. ) ;
#42 = ORIENTED_EDGE ( 'NONE', *, *, #35, .T. ) ;
#43 = EDGE_CURVE ( 'NONE', #18, #76, #173, .T. ) ;
#44 = ORIENTED_EDGE ( 'NONE', *, *, #64, .T. ) ;
#45 = ADVANCED_FACE ( 'NONE', ( #220 ), #224, .T. ) ;
#46 = ORIENTED_EDGE ( 'NONE', *, *, #36, .F. ) ;
#47 = EDGE_LOOP ( 'NONE', ( #53, #54, #26, #38 ) ) ;
#48 = ADVANCED_FACE ( 'NONE', ( #221 ), #257, .F. ) ;
#49 = EDGE_LOOP ( 'NONE', ( #41, #42, #44, #9 ) ) ;
#50 = ORIENTED_EDGE ( 'NONE', *, *, #138, .F. ) ;
#51 = AXIS2_PLACEMENT_3D ( 'NONE', #52, #70, #68 ) ;
#52 = CARTESIAN_POINT ( 'NONE',  ( -0.6594488189021853200, 0.0000000000000000000, 0.0000000000000000000 ) ) ;
#53 = ORIENTED_EDGE ( 'NONE', *, *, #61, .F. ) ;
#54 = ORIENTED_EDGE ( 'NONE', *, *, #56, .F. ) ;
#55 = ADVANCED_FACE ( 'NONE', ( #256 ), #248, .T. ) ;
#56 = EDGE_CURVE ( 'NONE', #17, #140, #242, .T. ) ;
#57 = EDGE_CURVE ( 'NONE', #65, #60, #243, .T. ) ;
#58 = ORIENTED_EDGE ( 'NONE', *, *, #57, .T. ) ;
#59 = ORIENTED_EDGE ( 'NONE', *, *, #61, .T. ) ;
#60 = VERTEX_POINT ( 'NONE', #219 ) ;
#61 = EDGE_CURVE ( 'NONE', #140, #65, #252, .T. ) ;
#62 = ORIENTED_EDGE ( 'NONE', *, *, #16, .F. ) ;
#63 = ADVANCED_FACE ( 'NONE', ( #312 ), #306, .T. ) ;
#64 = EDGE_CURVE ( 'NONE', #137, #76, #300, .T. ) ;
#65 = VERTEX_POINT ( 'NONE', #296 ) ;
#66 = ORIENTED_EDGE ( 'NONE', *, *, #64, .F. ) ;
#67 = CLOSED_SHELL ( 'NONE', ( #98, #77, #63, #45, #13, #40, #55, #48, #8, #31 ) ) ;
#68 = DIRECTION ( 'NONE',  ( 0.0000000000000000000, 0.0000000000000000000, -1.000000000000000000 ) ) ;
#69 = EDGE_CURVE ( 'NONE', #96, #18, #292, .T. ) ;
#70 = DIRECTION ( 'NONE',  ( 1.000000000000000000, 0.0000000000000000000, 0.0000000000000000000 ) ) ;
#71 = ORIENTED_EDGE ( 'NONE', *, *, #97, .F. ) ;
#72 = EDGE_LOOP ( 'NONE', ( #71, #59, #58, #12 ) ) ;
#73 = CONICAL_SURFACE ( 'NONE', #51, 0.1249999999954775900, 0.7853981632837614400 ) ;
#74 = ORIENTED_EDGE ( 'NONE', *, *, #16, .T. ) ;
#75 = MANIFOLD_SOLID_BREP ( 'Imported1', #67 ) ;
#76 = VERTEX_POINT ( 'NONE', #270 ) ;
#77 = ADVANCED_FACE ( 'NONE', ( #269 ), #271, .T. ) ;
#78 = ORIENTED_EDGE ( 'NONE', *, *, #97, .T. ) ;
#79 = CARTESIAN_POINT ( 'NONE',  ( 0.7086614173228347200, 2.049113738730807600E-017, -0.1673228346456693000 ) ) ;
#80 = FACE_OUTER_BOUND ( 'NONE', #24, .T. ) ;
#81 = DIRECTION ( 'NONE',  ( -1.000000000000000000, -0.0000000000000000000, -0.0000000000000000000 ) ) ;
#82 = CIRCLE ( 'NONE', #102, 0.1673228346456693000 ) ;
#83 = DIRECTION ( 'NONE',  ( 0.0000000000000000000, 0.0000000000000000000, -1.000000000000000000 ) ) ;
#84 = DIRECTION ( 'NONE',  ( -1.000000000000000000, -0.0000000000000000000, -0.0000000000000000000 ) ) ;
#85 = CIRCLE ( 'NONE', #128, 0.1673228346461885000 ) ;
#86 = DIRECTION ( 'NONE',  ( 0.0000000000000000000, 0.0000000000000000000, -1.000000000000000000 ) ) ;
#87 = DIRECTION ( 'NONE',  ( 1.000000000000000000, 0.0000000000000000000, 0.0000000000000000000 ) ) ;
#88 = CARTESIAN_POINT ( 'NONE',  ( -0.6692913385847539800, 0.0000000000000000000, 0.0000000000000000000 ) ) ;
#89 = AXIS2_PLACEMENT_3D ( 'NONE', #88, #87, #86 ) ;
#90 = DIRECTION ( 'NONE',  ( 0.0000000000000000000, 0.0000000000000000000, 1.000000000000000000 ) ) ;
#91 = DIRECTION ( 'NONE',  ( -1.000000000000000000, -0.0000000000000000000, -0.0000000000000000000 ) ) ;
#92 = CARTESIAN_POINT ( 'NONE',  ( 0.7086614173228347200, 0.0000000000000000000, 0.0000000000000000000 ) ) ;
#93 = AXIS2_PLACEMENT_3D ( 'NONE', #92, #91, #90 ) ;
#94 = CIRCLE ( 'NONE', #93, 0.1673228346456693000 ) ;
#95 = ORIENTED_EDGE ( 'NONE', *, *, #112, .T. ) ;
#96 = VERTEX_POINT ( 'NONE', #291 ) ;
#97 = EDGE_CURVE ( 'NONE', #140, #17, #267, .T. ) ;
#98 = ADVANCED_FACE ( 'NONE', ( #197 ), #264, .T. ) ;
#99 = DIRECTION ( 'NONE',  ( 0.0000000000000000000, 0.0000000000000000000, 1.000000000000000000 ) ) ;
#100 = DIRECTION ( 'NONE',  ( -1.000000000000000000, -0.0000000000000000000, -0.0000000000000000000 ) ) ;
#101 = CARTESIAN_POINT ( 'NONE',  ( 0.7086614173228347200, 0.0000000000000000000, 0.0000000000000000000 ) ) ;
#102 = AXIS2_PLACEMENT_3D ( 'NONE', #101, #100, #99 ) ;
#103 = CYLINDRICAL_SURFACE ( 'NONE', #144, 0.1249999999999999400 ) ;
#104 = DIRECTION ( 'NONE',  ( 0.0000000000000000000, 0.0000000000000000000, 1.000000000000000000 ) ) ;
#105 = CYLINDRICAL_SURFACE ( 'NONE', #143, 0.1673228346456693000 ) ;
#106 = CARTESIAN_POINT ( 'NONE',  ( 0.7086614173228348300, 0.0000000000000000000, 0.0000000000000000000 ) ) ;
#107 = DIRECTION ( 'NONE',  ( -1.000000000000000000, -0.0000000000000000000, -0.0000000000000000000 ) ) ;
#108 = VECTOR ( 'NONE', #107, 39.37007874015748100 ) ;
#109 = CARTESIAN_POINT ( 'NONE',  ( 0.7086614173228347200, 0.0000000000000000000, 0.1673228346456693000 ) ) ;
#110 = CARTESIAN_POINT ( 'NONE',  ( 0.0000000000000000000, 0.0000000000000000000, 0.1673228346456693000 ) ) ;
#111 = PLANE ( 'NONE',  #142 ) ;
#112 = EDGE_CURVE ( 'NONE', #137, #96, #191, .T. ) ;
#113 = FACE_OUTER_BOUND ( 'NONE', #37, .T. ) ;
#114 = DIRECTION ( 'NONE',  ( 0.0000000000000000000, 0.0000000000000000000, 1.000000000000000000 ) ) ;
#115 = DIRECTION ( 'NONE',  ( 1.000000000000000000, 0.0000000000000000000, 0.0000000000000000000 ) ) ;
#116 = LINE ( 'NONE', #110, #108 ) ;
#117 = CARTESIAN_POINT ( 'NONE',  ( -0.6594488188976381800, 1.530808498934494700E-017, 0.1250000000000247600 ) ) ;
#118 = CARTESIAN_POINT ( 'NONE',  ( 0.2905255299457147300, 0.0000000000000000000, -0.1249999999999999400 ) ) ;
#119 = AXIS2_PLACEMENT_3D ( 'NONE', #147, #115, #114 ) ;
#120 = DIRECTION ( 'NONE',  ( -1.000000000000000000, -0.0000000000000000000, -0.0000000000000000000 ) ) ;
#121 = VECTOR ( 'NONE', #120, 39.37007874015748100 ) ;
#122 = CARTESIAN_POINT ( 'NONE',  ( 0.0000000000000000000, 2.049113738730807600E-017, -0.1673228346456693000 ) ) ;
#123 = LINE ( 'NONE', #122, #121 ) ;
#124 = DIRECTION ( 'NONE',  ( 0.0000000000000000000, 0.0000000000000000000, 1.000000000000000000 ) ) ;
#125 = DIRECTION ( 'NONE',  ( -1.000000000000000000, -0.0000000000000000000, -0.0000000000000000000 ) ) ;
#126 = EDGE_CURVE ( 'NONE', #140, #18, #193, .T. ) ;
#127 = APPLICATION_PROTOCOL_DEFINITION ( 'draft international standard', 'automotive_design', 1998, #174 ) ;
#128 = AXIS2_PLACEMENT_3D ( 'NONE', #136, #84, #83 ) ;
#129 = DIRECTION ( 'NONE',  ( 0.0000000000000000000, 0.0000000000000000000, 1.000000000000000000 ) ) ;
#130 = DIRECTION ( 'NONE',  ( -1.000000000000000000, 0.0000000000000000000, 0.0000000000000000000 ) ) ;
#131 = FACE_OUTER_BOUND ( 'NONE', #49, .T. ) ;
#132 = CIRCLE ( 'NONE', #89, 0.1151574803151468300 ) ;
#133 = DIRECTION ( 'NONE',  ( 0.5000000000119579900, 0.0000000000000000000, -0.8660254037775345600 ) ) ;
#134 = VECTOR ( 'NONE', #133, 39.37007874015748100 ) ;
#135 = CARTESIAN_POINT ( 'NONE',  ( 0.3149606299205258100, 0.0000000000000000000, -0.1673228346461885000 ) ) ;
#136 = CARTESIAN_POINT ( 'NONE',  ( 0.3149606299205258100, 0.0000000000000000000, 0.0000000000000000000 ) ) ;
#137 = VERTEX_POINT ( 'NONE', #187 ) ;
#138 = EDGE_CURVE ( 'NONE', #17, #76, #184, .T. ) ;
#139 = ORIENTED_EDGE ( 'NONE', *, *, #69, .T. ) ;
#140 = VERTEX_POINT ( 'NONE', #194 ) ;
#141 = EDGE_LOOP ( 'NONE', ( #78, #19, #74, #146 ) ) ;
#142 = AXIS2_PLACEMENT_3D ( 'NONE', #106, #130, #129 ) ;
#143 = AXIS2_PLACEMENT_3D ( 'NONE', #145, #81, #104 ) ;
#144 = AXIS2_PLACEMENT_3D ( 'NONE', #151, #125, #124 ) ;
#145 = CARTESIAN_POINT ( 'NONE',  ( 0.0000000000000000000, 0.0000000000000000000, 0.0000000000000000000 ) ) ;
#146 = ORIENTED_EDGE ( 'NONE', *, *, #126, .F. ) ;
#147 = CARTESIAN_POINT ( 'NONE',  ( -0.6594488188976381800, 0.0000000000000000000, 0.0000000000000000000 ) ) ;
#148 = LINE ( 'NONE', #135, #134 ) ;
#149 = CIRCLE ( 'NONE', #119, 0.1249999999999999400 ) ;
#150 = FACE_OUTER_BOUND ( 'NONE', #39, .T. ) ;
#151 = CARTESIAN_POINT ( 'NONE',  ( 0.0000000000000000000, 0.0000000000000000000, 0.0000000000000000000 ) ) ;
#152 = EDGE_LOOP ( 'NONE', ( #95, #139, #62, #66 ) ) ;
#153 = SHAPE_REPRESENTATION_RELATIONSHIP ( 'NONE' , 'NONE' ,  #156, #229 ) ;
#154 = DIRECTION ( 'NONE',  ( 0.0000000000000000000, 0.0000000000000000000, 1.000000000000000000 ) ) ;
#155 = AXIS2_PLACEMENT_3D ( 'NONE', #177, #154, #175 ) ;
#156 = SHAPE_REPRESENTATION ( 'KQ2P-07.step_KQ2P_07', ( #228 ), #230 ) ;
#157 =( GEOMETRIC_REPRESENTATION_CONTEXT ( 3 ) GLOBAL_UNCERTAINTY_ASSIGNED_CONTEXT ( ( #158 ) ) GLOBAL_UNIT_ASSIGNED_CONTEXT ( ( #161, #160, #159 ) ) REPRESENTATION_CONTEXT ( 'NONE', 'WORKASPACE' ) );
#158 = UNCERTAINTY_MEASURE_WITH_UNIT (LENGTH_MEASURE( 1.000000000000000100E-005 ), #161, 'distance_accuracy_value', 'NONE');
#159 =( NAMED_UNIT ( * ) SI_UNIT ( $, .STERADIAN. ) SOLID_ANGLE_UNIT ( ) );
#160 =( NAMED_UNIT ( * ) PLANE_ANGLE_UNIT ( ) SI_UNIT ( $, .RADIAN. ) );
#161 =( CONVERSION_BASED_UNIT ( 'INCH', #162 ) LENGTH_UNIT ( ) NAMED_UNIT ( #163 ) );
#162 = LENGTH_MEASURE_WITH_UNIT ( LENGTH_MEASURE( 0.02539999999999999900 ), #164 );
#163 = DIMENSIONAL_EXPONENTS ( 1.000000000000000000, 0.0000000000000000000, 0.0000000000000000000, 0.0000000000000000000, 0.0000000000000000000, 0.0000000000000000000, 0.0000000000000000000 ) ;
#164 =( LENGTH_UNIT ( ) NAMED_UNIT ( * ) SI_UNIT ( $, .METRE. ) );
#165 = MECHANICAL_DESIGN_GEOMETRIC_PRESENTATION_REPRESENTATION (  '', ( #167 ), #157 ) ;
#166 = PRESENTATION_LAYER_ASSIGNMENT (  '', '', ( #167 ) ) ;
#167 = STYLED_ITEM ( 'NONE', ( #168 ), #229 ) ;
#168 = PRESENTATION_STYLE_ASSIGNMENT (( #169 ) ) ;
#169 = SURFACE_STYLE_USAGE ( .BOTH. , #170 ) ;
#170 = SURFACE_SIDE_STYLE ('',( #171 ) ) ;
#171 = SURFACE_STYLE_FILL_AREA ( #179 ) ;
#172 = COLOUR_RGB ( '',0.7921568627450980000, 0.8196078431372548800, 0.9333333333333333500 ) ;
#173 = CIRCLE ( 'NONE', #262, 0.1249999999999999400 ) ;
#174 = APPLICATION_CONTEXT ( 'automotive_design' ) ;
#175 = DIRECTION ( 'NONE',  ( 1.000000000000000000, 0.0000000000000000000, 0.0000000000000000000 ) ) ;
#176 =( GEOMETRIC_REPRESENTATION_CONTEXT ( 3 ) GLOBAL_UNCERTAINTY_ASSIGNED_CONTEXT ( ( #202 ) ) GLOBAL_UNIT_ASSIGNED_CONTEXT ( ( #205, #204, #203 ) ) REPRESENTATION_CONTEXT ( 'NONE', 'WORKASPACE' ) );
#177 = CARTESIAN_POINT ( 'NONE',  ( 0.0000000000000000000, 0.0000000000000000000, 0.0000000000000000000 ) ) ;
#178 =( LENGTH_UNIT ( ) NAMED_UNIT ( * ) SI_UNIT ( $, .METRE. ) );
#179 = FILL_AREA_STYLE ('',( #180 ) ) ;
#180 = FILL_AREA_STYLE_COLOUR ( '', #172 ) ;
#181 = DIRECTION ( 'NONE',  ( -1.000000000000000000, -0.0000000000000000000, -0.0000000000000000000 ) ) ;
#182 = VECTOR ( 'NONE', #181, 39.37007874015748100 ) ;
#183 = CARTESIAN_POINT ( 'NONE',  ( 0.0000000000000000000, 1.530808498934190900E-017, -0.1249999999999999400 ) ) ;
#184 = LINE ( 'NONE', #183, #182 ) ;
#185 = DIRECTION ( 'NONE',  ( -1.000000000000000000, -0.0000000000000000000, -0.0000000000000000000 ) ) ;
#186 = VECTOR ( 'NONE', #185, 39.37007874015748100 ) ;
#187 = CARTESIAN_POINT ( 'NONE',  ( -0.6692913385847539800, 0.0000000000000000000, -0.1151574803151468300 ) ) ;
#188 = DIRECTION ( 'NONE',  ( 0.0000000000000000000, 0.0000000000000000000, -1.000000000000000000 ) ) ;
#189 = DIRECTION ( 'NONE',  ( 1.000000000000000000, 0.0000000000000000000, 0.0000000000000000000 ) ) ;
#190 = CARTESIAN_POINT ( 'NONE',  ( -0.6692913385847539800, 0.0000000000000000000, 0.0000000000000000000 ) ) ;
#191 = CIRCLE ( 'NONE', #287, 0.1151574803151468300 ) ;
#192 = CARTESIAN_POINT ( 'NONE',  ( 0.0000000000000000000, 0.0000000000000000000, 0.1249999999999999400 ) ) ;
#193 = LINE ( 'NONE', #192, #186 ) ;
#194 = CARTESIAN_POINT ( 'NONE',  ( 0.2905255299457147300, 1.789961118835678600E-017, 0.1249999999999999400 ) ) ;
#195 = CARTESIAN_POINT ( 'NONE',  ( 0.0000000000000000000, 0.0000000000000000000, 0.0000000000000000000 ) ) ;
#196 = AXIS2_PLACEMENT_3D ( 'NONE', #195, #299, #268 ) ;
#197 = FACE_OUTER_BOUND ( 'NONE', #141, .T. ) ;
#198 = DIRECTION ( 'NONE',  ( 0.0000000000000000000, 0.0000000000000000000, 1.000000000000000000 ) ) ;
#199 = DIRECTION ( 'NONE',  ( -1.000000000000000000, -0.0000000000000000000, -0.0000000000000000000 ) ) ;
#200 = CARTESIAN_POINT ( 'NONE',  ( 0.2905255299457147300, 0.0000000000000000000, 0.0000000000000000000 ) ) ;
#201 = AXIS2_PLACEMENT_3D ( 'NONE', #200, #199, #198 ) ;
#202 = UNCERTAINTY_MEASURE_WITH_UNIT (LENGTH_MEASURE( 1.000000000000000100E-005 ), #205, 'distance_accuracy_value', 'NONE');
#203 =( NAMED_UNIT ( * ) SI_UNIT ( $, .STERADIAN. ) SOLID_ANGLE_UNIT ( ) );
#204 =( NAMED_UNIT ( * ) PLANE_ANGLE_UNIT ( ) SI_UNIT ( $, .RADIAN. ) );
#205 =( CONVERSION_BASED_UNIT ( 'INCH', #206 ) LENGTH_UNIT ( ) NAMED_UNIT ( #207 ) );
#206 = LENGTH_MEASURE_WITH_UNIT ( LENGTH_MEASURE( 0.02539999999999999900 ), #208 );
#207 = DIMENSIONAL_EXPONENTS ( 1.000000000000000000, 0.0000000000000000000, 0.0000000000000000000, 0.0000000000000000000, 0.0000000000000000000, 0.0000000000000000000, 0.0000000000000000000 ) ;
#208 =( LENGTH_UNIT ( ) NAMED_UNIT ( * ) SI_UNIT ( $, .METRE. ) );
#209 = DIRECTION ( 'NONE',  ( 1.000000000000000000, 0.0000000000000000000, 0.0000000000000000000 ) ) ;
#210 = DIRECTION ( 'NONE',  ( 0.0000000000000000000, 0.0000000000000000000, 1.000000000000000000 ) ) ;
#211 = CARTESIAN_POINT ( 'NONE',  ( 0.0000000000000000000, 0.0000000000000000000, 0.0000000000000000000 ) ) ;
#212 = AXIS2_PLACEMENT_3D ( 'NONE', #211, #210, #209 ) ;
#213 = DIRECTION ( 'NONE',  ( 1.000000000000000000, 0.0000000000000000000, 0.0000000000000000000 ) ) ;
#214 = DIRECTION ( 'NONE',  ( 0.0000000000000000000, 0.0000000000000000000, 1.000000000000000000 ) ) ;
#215 = CARTESIAN_POINT ( 'NONE',  ( 0.0000000000000000000, 0.0000000000000000000, 0.0000000000000000000 ) ) ;
#216 = AXIS2_PLACEMENT_3D ( 'NONE', #215, #214, #213 ) ;
#217 = SHAPE_REPRESENTATION ( 'B004M8T1SI.3D', ( #155, #212 ), #176 ) ;
#218 = AXIS2_PLACEMENT_3D ( 'NONE', #258, #222, #253 ) ;
#219 = CARTESIAN_POINT ( 'NONE',  ( 0.3149606299205258100, 2.049113738737166000E-017, -0.1673228346461885000 ) ) ;
#220 = FACE_OUTER_BOUND ( 'NONE', #5, .T. ) ;
#221 = FACE_OUTER_BOUND ( 'NONE', #33, .T. ) ;
#222 = DIRECTION ( 'NONE',  ( -1.000000000000000000, -0.0000000000000000000, -0.0000000000000000000 ) ) ;
#223 = AXIS2_PLACEMENT_3D ( 'NONE', #251, #250, #249 ) ;
#224 = CYLINDRICAL_SURFACE ( 'NONE', #218, 0.1673228346456693000 ) ;
#225 = DIRECTION ( 'NONE',  ( 1.000000000000000000, 0.0000000000000000000, 0.0000000000000000000 ) ) ;
#226 = DIRECTION ( 'NONE',  ( 0.0000000000000000000, 0.0000000000000000000, 1.000000000000000000 ) ) ;
#227 = CARTESIAN_POINT ( 'NONE',  ( 0.0000000000000000000, 0.0000000000000000000, 0.0000000000000000000 ) ) ;
#228 = AXIS2_PLACEMENT_3D ( 'NONE', #227, #226, #225 ) ;
#229 = ADVANCED_BREP_SHAPE_REPRESENTATION ( '', ( #75, #228 ), #230 ) ;
#230 =( GEOMETRIC_REPRESENTATION_CONTEXT ( 3 ) GLOBAL_UNCERTAINTY_ASSIGNED_CONTEXT ( ( #231 ) ) GLOBAL_UNIT_ASSIGNED_CONTEXT ( ( #234, #233, #232 ) ) REPRESENTATION_CONTEXT ( 'NONE', 'WORKASPACE' ) );
#231 = UNCERTAINTY_MEASURE_WITH_UNIT (LENGTH_MEASURE( 1.000000000000000100E-005 ), #234, 'distance_accuracy_value', 'NONE');
#232 =( NAMED_UNIT ( * ) SI_UNIT ( $, .STERADIAN. ) SOLID_ANGLE_UNIT ( ) );
#233 =( NAMED_UNIT ( * ) PLANE_ANGLE_UNIT ( ) SI_UNIT ( $, .RADIAN. ) );
#234 =( CONVERSION_BASED_UNIT ( 'INCH', #235 ) LENGTH_UNIT ( ) NAMED_UNIT ( #236 ) );
#235 = LENGTH_MEASURE_WITH_UNIT ( LENGTH_MEASURE( 0.02539999999999999900 ), #178 );
#236 = DIMENSIONAL_EXPONENTS ( 1.000000000000000000, 0.0000000000000000000, 0.0000000000000000000, 0.0000000000000000000, 0.0000000000000000000, 0.0000000000000000000, 0.0000000000000000000 ) ;
#237 = CARTESIAN_POINT ( 'NONE',  ( 0.3149606299205258100, 0.0000000000000000000, 0.0000000000000000000 ) ) ;
#238 = DIRECTION ( 'NONE',  ( 1.000000000000000000, 0.0000000000000000000, 0.0000000000000000000 ) ) ;
#239 = DIRECTION ( 'NONE',  ( 0.0000000000000000000, 0.0000000000000000000, 1.000000000000000000 ) ) ;
#240 = DIRECTION ( 'NONE',  ( -1.000000000000000000, -0.0000000000000000000, -0.0000000000000000000 ) ) ;
#241 = CARTESIAN_POINT ( 'NONE',  ( 0.2905255299457147300, 0.0000000000000000000, 0.0000000000000000000 ) ) ;
#242 = CIRCLE ( 'NONE', #255, 0.1249999999999999400 ) ;
#243 = CIRCLE ( 'NONE', #310, 0.1673228346461885000 ) ;
#244 = DIRECTION ( 'NONE',  ( 0.0000000000000000000, 0.0000000000000000000, -1.000000000000000000 ) ) ;
#245 = DIRECTION ( 'NONE',  ( 1.000000000000000000, 0.0000000000000000000, 0.0000000000000000000 ) ) ;
#246 = CARTESIAN_POINT ( 'NONE',  ( 0.3149606299205258100, 0.0000000000000000000, 0.0000000000000000000 ) ) ;
#247 = AXIS2_PLACEMENT_3D ( 'NONE', #246, #245, #244 ) ;
#248 = CONICAL_SURFACE ( 'NONE', #247, 0.1673228346461885000, 1.047197551182789800 ) ;
#249 = DIRECTION ( 'NONE',  ( 0.0000000000000000000, 0.0000000000000000000, -1.000000000000000000 ) ) ;
#250 = DIRECTION ( 'NONE',  ( 1.000000000000000000, 0.0000000000000000000, 0.0000000000000000000 ) ) ;
#251 = CARTESIAN_POINT ( 'NONE',  ( -0.6692913385826775300, 0.1249999999999999000, 0.0000000000000000000 ) ) ;
#252 = LINE ( 'NONE', #254, #304 ) ;
#253 = DIRECTION ( 'NONE',  ( 0.0000000000000000000, 0.0000000000000000000, 1.000000000000000000 ) ) ;
#254 = CARTESIAN_POINT ( 'NONE',  ( 0.3149606299205258100, 2.049113738737166000E-017, 0.1673228346461885000 ) ) ;
#255 = AXIS2_PLACEMENT_3D ( 'NONE', #241, #240, #239 ) ;
#256 = FACE_OUTER_BOUND ( 'NONE', #47, .T. ) ;
#257 = PLANE ( 'NONE',  #223 ) ;
#258 = CARTESIAN_POINT ( 'NONE',  ( 0.0000000000000000000, 0.0000000000000000000, 0.0000000000000000000 ) ) ;
#259 = DIRECTION ( 'NONE',  ( 0.0000000000000000000, 0.0000000000000000000, 1.000000000000000000 ) ) ;
#260 = DIRECTION ( 'NONE',  ( 1.000000000000000000, 0.0000000000000000000, 0.0000000000000000000 ) ) ;
#261 = CARTESIAN_POINT ( 'NONE',  ( -0.6594488188976381800, 0.0000000000000000000, 0.0000000000000000000 ) ) ;
#262 = AXIS2_PLACEMENT_3D ( 'NONE', #261, #260, #259 ) ;
#263 = DIRECTION ( 'NONE',  ( 0.0000000000000000000, 0.0000000000000000000, -1.000000000000000000 ) ) ;
#264 = CYLINDRICAL_SURFACE ( 'NONE', #196, 0.1249999999999999400 ) ;
#265 = DIRECTION ( 'NONE',  ( 1.000000000000000000, 0.0000000000000000000, 0.0000000000000000000 ) ) ;
#266 = CARTESIAN_POINT ( 'NONE',  ( -0.6594488189021853200, 0.0000000000000000000, 0.0000000000000000000 ) ) ;
#267 = CIRCLE ( 'NONE', #201, 0.1249999999999999400 ) ;
#268 = DIRECTION ( 'NONE',  ( 0.0000000000000000000, 0.0000000000000000000, 1.000000000000000000 ) ) ;
#269 = FACE_OUTER_BOUND ( 'NONE', #152, .T. ) ;
#270 = CARTESIAN_POINT ( 'NONE',  ( -0.6594488188976381800, 0.0000000000000000000, -0.1250000000000247600 ) ) ;
#271 = CONICAL_SURFACE ( 'NONE', #302, 0.1249999999954775900, 0.7853981632837614400 ) ;
#272 =( GEOMETRIC_REPRESENTATION_CONTEXT ( 3 ) GLOBAL_UNCERTAINTY_ASSIGNED_CONTEXT ( ( #273 ) ) GLOBAL_UNIT_ASSIGNED_CONTEXT ( ( #276, #275, #274 ) ) REPRESENTATION_CONTEXT ( 'NONE', 'WORKASPACE' ) );
#273 = UNCERTAINTY_MEASURE_WITH_UNIT (LENGTH_MEASURE( 1.000000000000000100E-005 ), #276, 'distance_accuracy_value', 'NONE');
#274 =( NAMED_UNIT ( * ) SI_UNIT ( $, .STERADIAN. ) SOLID_ANGLE_UNIT ( ) );
#275 =( NAMED_UNIT ( * ) PLANE_ANGLE_UNIT ( ) SI_UNIT ( $, .RADIAN. ) );
#276 =( CONVERSION_BASED_UNIT ( 'INCH', #277 ) LENGTH_UNIT ( ) NAMED_UNIT ( #278 ) );
#277 = LENGTH_MEASURE_WITH_UNIT ( LENGTH_MEASURE( 0.02539999999999999900 ), #279 );
#278 = DIMENSIONAL_EXPONENTS ( 1.000000000000000000, 0.0000000000000000000, 0.0000000000000000000, 0.0000000000000000000, 0.0000000000000000000, 0.0000000000000000000, 0.0000000000000000000 ) ;
#279 =( LENGTH_UNIT ( ) NAMED_UNIT ( * ) SI_UNIT ( $, .METRE. ) );
#280 = MECHANICAL_DESIGN_GEOMETRIC_PRESENTATION_REPRESENTATION (  '', ( #282 ), #272 ) ;
#281 = PRESENTATION_LAYER_ASSIGNMENT (  '', '', ( #282 ) ) ;
#282 = STYLED_ITEM ( 'NONE', ( #283 ), #75 ) ;
#283 = PRESENTATION_STYLE_ASSIGNMENT (( #284 ) ) ;
#284 = SURFACE_STYLE_USAGE ( .BOTH. , #285 ) ;
#285 = SURFACE_SIDE_STYLE ('',( #286 ) ) ;
#286 = SURFACE_STYLE_FILL_AREA ( #301 ) ;
#287 = AXIS2_PLACEMENT_3D ( 'NONE', #190, #189, #188 ) ;
#288 = DIRECTION ( 'NONE',  ( 0.7071067812669361600, 8.659560561370451700E-017, 0.7071067811061586500 ) ) ;
#289 = VECTOR ( 'NONE', #288, 39.37007874015748900 ) ;
#290 = CARTESIAN_POINT ( 'NONE',  ( -0.6594488189021853200, 1.530808498878807900E-017, 0.1249999999954775900 ) ) ;
#291 = CARTESIAN_POINT ( 'NONE',  ( -0.6692913385847539800, 1.470540447796341800E-017, 0.1151574803151468300 ) ) ;
#292 = LINE ( 'NONE', #290, #289 ) ;
#293 = DIRECTION ( 'NONE',  ( 0.7071067812669361600, 0.0000000000000000000, -0.7071067811061586500 ) ) ;
#294 = VECTOR ( 'NONE', #293, 39.37007874015748900 ) ;
#295 = CARTESIAN_POINT ( 'NONE',  ( -0.6594488189021853200, 0.0000000000000000000, -0.1249999999954775900 ) ) ;
#296 = CARTESIAN_POINT ( 'NONE',  ( 0.3149606299205258100, 0.0000000000000000000, 0.1673228346461885000 ) ) ;
#297 = DIRECTION ( 'NONE',  ( 0.0000000000000000000, 0.0000000000000000000, -1.000000000000000000 ) ) ;
#298 = FILL_AREA_STYLE_COLOUR ( '', #305 ) ;
#299 = DIRECTION ( 'NONE',  ( -1.000000000000000000, -0.0000000000000000000, -0.0000000000000000000 ) ) ;
#300 = LINE ( 'NONE', #295, #294 ) ;
#301 = FILL_AREA_STYLE ('',( #298 ) ) ;
#302 = AXIS2_PLACEMENT_3D ( 'NONE', #266, #265, #263 ) ;
#303 = DIRECTION ( 'NONE',  ( 0.5000000000119579900, 1.060575238716451800E-016, 0.8660254037775345600 ) ) ;
#304 = VECTOR ( 'NONE', #303, 39.37007874015748100 ) ;
#305 = COLOUR_RGB ( '',0.7921568627450980000, 0.8196078431372548800, 0.9333333333333333500 ) ;
#306 = CONICAL_SURFACE ( 'NONE', #311, 0.1673228346461885000, 1.047197551182789800 ) ;
#307 = DIRECTION ( 'NONE',  ( 0.0000000000000000000, 0.0000000000000000000, -1.000000000000000000 ) ) ;
#308 = DIRECTION ( 'NONE',  ( -1.000000000000000000, -0.0000000000000000000, -0.0000000000000000000 ) ) ;
#309 = CARTESIAN_POINT ( 'NONE',  ( 0.3149606299205258100, 0.0000000000000000000, 0.0000000000000000000 ) ) ;
#310 = AXIS2_PLACEMENT_3D ( 'NONE', #309, #308, #307 ) ;
#311 = AXIS2_PLACEMENT_3D ( 'NONE', #237, #238, #297 ) ;
#312 = FACE_OUTER_BOUND ( 'NONE', #72, .T. ) ;
#313 =( REPRESENTATION_RELATIONSHIP ('NONE','NONE', #217, #156 ) REPRESENTATION_RELATIONSHIP_WITH_TRANSFORMATION ( #317 )SHAPE_REPRESENTATION_RELATIONSHIP( ) );
#314 = APPLICATION_PROTOCOL_DEFINITION ( 'draft international standard', 'automotive_design', 1998, #333 ) ;
#315 = PRODUCT_DEFINITION_SHAPE ( 'NONE', 'NONE',  #339 ) ;
#316 = PRODUCT_DEFINITION_SHAPE ( 'NONE', 'NONE',  #332 ) ;
#317 = ITEM_DEFINED_TRANSFORMATION ( 'NONE', 'NONE', #212,  #228 ) ;
#318 = PRODUCT_RELATED_PRODUCT_CATEGORY ( 'part', '', ( #334 ) ) ;
#319 = PRODUCT_DEFINITION_FORMATION_WITH_SPECIFIED_SOURCE ( 'ANY', '', #334, .NOT_KNOWN. ) ;
#320 = SHAPE_DEFINITION_REPRESENTATION ( #338, #156 ) ;
#321 = PRODUCT_DEFINITION ( 'UNKNOWN', '', #319, #322 ) ;
#322 = PRODUCT_DEFINITION_CONTEXT ( 'detailed design', #324, 'design' ) ;
#323 = APPLICATION_PROTOCOL_DEFINITION ( 'draft international standard', 'automotive_design', 1998, #324 ) ;
#324 = APPLICATION_CONTEXT ( 'automotive_design' ) ;
#325 = PRODUCT ( 'B004M8T1SI.3D', 'B004M8T1SI.3D', '', ( #329 ) ) ;
#326 = PRODUCT_DEFINITION_CONTEXT ( 'detailed design', #333, 'design' ) ;
#327 = APPLICATION_CONTEXT ( 'automotive_design' ) ;
#328 = PRODUCT_RELATED_PRODUCT_CATEGORY ( 'part', '', ( #325 ) ) ;
#329 = PRODUCT_CONTEXT ( 'NONE', #174, 'mechanical' ) ;
#330 = SHAPE_DEFINITION_REPRESENTATION ( #316, #217 ) ;
#331 = PRODUCT_DEFINITION_FORMATION_WITH_SPECIFIED_SOURCE ( 'ANY', '', #325, .NOT_KNOWN. ) ;
#332 = PRODUCT_DEFINITION ( 'UNKNOWN', '', #331, #326 ) ;
#333 = APPLICATION_CONTEXT ( 'automotive_design' ) ;
#334 = PRODUCT ( 'KQ2P-07.step_KQ2P_07', 'KQ2P-07.step_KQ2P_07', '', ( #335 ) ) ;
#335 = PRODUCT_CONTEXT ( 'NONE', #327, 'mechanical' ) ;
#336 = APPLICATION_PROTOCOL_DEFINITION ( 'draft international standard', 'automotive_design', 1998, #327 ) ;
#337 = CONTEXT_DEPENDENT_SHAPE_REPRESENTATION ( #313, #315 ) ;
#338 = PRODUCT_DEFINITION_SHAPE ( 'NONE', 'NONE',  #321 ) ;
#339 = NEXT_ASSEMBLY_USAGE_OCCURRENCE ( 'NAUO1', ' ', ' ', #332, #321, $ ) ;
ENDSEC;
END-ISO-10303-21;
